afgafgadfgadfg

(/) Slide Up  (\) Slide Down  (h) Hammer On  (p) Pull Off  (b) Bend (r) Release (v) Vibrato


E|-------------------------------------------------------------------------
B|-----0-----------0-----------0-----------0-----------0-----------0-------
G|-------0---0-------0---0-------0---0-------0---0-------0---0-------0---0-
D|-------------------------------------------------------------------------
A|---9-----9-----9-----9-----7-----7-----7-----7-----5-----5-----5-----5---
E|-7-----------7-----------5-----------5-----------3-----------3-----------



E|-------------------------
B|-----0-----------0-------
G|-------0---0-------0---0-
D|-------------------------
A|---4-----4-----4-----4---
E|-2-----------2-----------



E|-
B|-
G|-
D|-
A|-
E|-
http://www.guitartabcreator.com
Guitar Tab Creator is intended to store guitar tab created through the tool. It currently does not support in-line text editing. Any text you place in here will be lost. If you need to comment on your tab, please use the "Tab Notes" section located below.