guitar class project

(/) Slide Up  (\) Slide Down  (h) Hammer On  (p) Pull Off  (b) Bend (r) Release (v) Vibrato

E|--1--1--1--1--1-----------------------
B|--2--2--2--2--2--1--1--1--1--1--------
G|--3--3--3--3--3-----------------------
D|-----------------2--2--2--2--2--------
A|-----------------3--3--3--3--3--2--2--
E|--------------------------------3--3--



E|--3--3--3--3-----------1--
B|--------------1--1--1--3--
G|--------------2--2--2--2--
D|--------------3--3--3-----
A|--2--2--2--2--------------
E|--3--3--3--3--------------
http://www.guitartabcreator.com
Guitar Tab Creator is intended to store guitar tab created through the tool. It currently does not support in-line text editing. Any text you place in here will be lost. If you need to comment on your tab, please use the "Tab Notes" section located below.