Layla1

(/) Slide Up  (\) Slide Down  (h) Hammer On  (p) Pull Off  (b) Bend (r) Release (v) Vibrato

E|----------------------------------------------------------------
B|--------5--6--5h6-----5--6--5-----5--6\8--6--8\10--8--10\13-----
G|-----7-------------7-----------7--------------------------------
D|--7-------------------------------------------------------------
A|----------------------------------------------------------------
E|----------------------------------------------------------------



E|----------10--12--10h12------10------------------------------------------
B|--10--13-----------------13------13--10------10--------------------------
G|-----------------------------------------12------12--10h12--9------9--7--
D|---------------------------------------------------------------10--------
A|-------------------------------------------------------------------------
E|-------------------------------------------------------------------------



E|--
B|--
G|--
D|--
A|--
E|--
http://www.guitartabcreator.com
Guitar Tab Creator is intended to store guitar tab created through the tool. It currently does not support in-line text editing. Any text you place in here will be lost. If you need to comment on your tab, please use the "Tab Notes" section located below.