Ultimo's don't look back in anger chorus

(/) Slide Up  (\) Slide Down  (h) Hammer On  (p) Pull Off  (b) Bend (r) Release (v) Vibrato


E|--3-----3-----1--3--1--0-----0--------0-----------------------0--------------0--3--
B|--1-----1-----0--------1-----1--3--3-----1-----1--------3--3-----3--1--------1--3--
G|--0--0-----0--0--------2--2-----------------2-----2--------------------0-----2--0--
D|-----------------------------------------3--------------------------------2--------
A|--3--------------------0--------------------------------------------3--------0-----
E|--------------3--------------------0-----------------3-----3--------------------3--



E|--0--0--5--0--3--0--------------------0--
B|--0-----------1-----3--1--------3--------
G|--0-----------2--------------0-----0-----
D|--------------3--------------------------
A|-----------------------------------------
E|--0-----------------------3--------------
http://www.guitartabcreator.com
Guitar Tab Creator is intended to store guitar tab created through the tool. It currently does not support in-line text editing. Any text you place in here will be lost. If you need to comment on your tab, please use the "Tab Notes" section located below.