Ultimo's don't look back in anger

(/) Slide Up  (\) Slide Down  (h) Hammer On  (p) Pull Off  (b) Bend (r) Release (v) Vibrato
E|--0-----------------0--0-----0--------0---------------------------------------0--3--
B|--1--3--3--1--3--3-----1-----1--3--3-----3--1-----1--------1p0h1-----1--------1--3--
G|--0-----------0--------2--2--------------------2-----2------------0-----0-----2--0--
D|--------------0-----------------------------3------------------------------2--------
A|--3--------------------0---------------------------------------------3--------0-----
E|--------------3--------------------0--------------------3------------------------3--



E|-----------------------------------0-----------------------
B|--------3-----3--3--1--3--1--3--1--1-----1-----1-----1-----
G|-----2-----2-----------------------0-----0-----0-----0-----
D|--3-----------------------------------2-----2-----2-----2--
A|-----------------------------------3-----------------------
E|-----------------------------------------------------------



E|--------------------------------------------------0-----------------0-----------------------------
B|--3--3--1--3--1--3--1--3--5--5-----5-----5-----5--1--3--3--1--3--3-----1-----1-----1-----1--------
G|--0-----------------------4-----4-----4-----4-----2-----------0-----------2-----2-----2-----2-----
D|--0-----------------------2-----------------------------------0--------3--------------------------
A|--------------------------------------------------0-----------------------------------------------
E|--3-----------------------4-----------------------------------3-----------------------------------



E|--------------------------
B|--3-----3-----3-----3-----
G|-----0-----0-----0-----0--
D|--------------------------
A|--------------------------
E|--3-----------------------
http://www.guitartabcreator.com
Guitar Tab Creator is intended to store guitar tab created through the tool. It currently does not support in-line text editing. Any text you place in here will be lost. If you need to comment on your tab, please use the "Tab Notes" section located below.