#1

(/) Slide Up  (\) Slide Down  (h) Hammer On  (p) Pull Off  (b) Bend (r) Release (v) Vibrato

E|-----------------------------------------------------------------------------------------
B|-----------------------------------------------------------------------------------------
G|--12--10--9--12b12----12--10--9--9b9----12--10--9--12b12----12--10--9------9------10--9--
D|-----------------------------------------------------------------------10-----10---------
A|-----------------------------------------------------------------------------------------
E|-----------------------------------------------------------------------------------------



E|---------------------------------------------------------------------------------
B|---------------------------------------------------------------------------------
G|--12--10--9------------12----12--10--9----------9----12--10--9--12/15\12--12-----
D|-------------12/15\12-------------------9/12\9-----------------------------------
A|---------------------------------------------------------------------------------
E|---------------------------------------------------------------------------------



E|----------------------------------------------
B|------------------------------------------11--
G|--12--10--9------10--9------10--9-------------
D|-------------10---------10---------10--8------
A|----------------------------------------------
E|----------------------------------------------



E|------------------------------------------------------------------------------------------------
B|------------------------------------------------------------------------------------------------
G|--12--10--9--12b12----12--10--9--9b9----12--10--9--12b12----12--10--9------9h10p9---------9-----
D|-----------------------------------------------------------------------10----------10--9--------
A|------------------------------------------------------------------------------------------------
E|------------------------------------------------------------------------------------------------
http://www.guitartabcreator.com
Guitar Tab Creator is intended to store guitar tab created through the tool. It currently does not support in-line text editing. Any text you place in here will be lost. If you need to comment on your tab, please use the "Tab Notes" section located below.