Quasar Distorter

(/) Slide Up  (\) Slide Down  (h) Hammer On  (p) Pull Off  (b) Bend (r) Release (v) Vibrato

Stave 1:

E|----------------------------------------------------------------------------
B|----------------------------------------------------------------------------
G|----------------------------------------------------------------------------
D|--5--4----------------------------5v----5--4----------------------------5v--
A|--------5------------------0h5p0--------------5------------------0h5p0------
E|-----------7----0--2--3--------------------------7----0--2--3---------------

Stave 2:

E|-----------------------------------------------------------
B|-----------------------------------------------------------
G|-----------------------------------------------------------
D|-------------5--------5p0------------5--7--8-----5--7--8v--
A|-----------------------------------------------------------
E|--0h3--3--3-----3--3---------0h3--3-----------3------------

Stave 3:

E|---------------------------------------------------------------------------
B|---------------------------------------------------------------------------
G|---------------------------------------------------------------------------
D|-----------11--12-----9--11--12v-------------11--12--14--12--11h12--11--9--
A|---------------------------------------------------------------------------
E|--7--7--7----------7----------------7--7--7--------------------------------

Stave 4:

E|---------------------------------------------------------------------------
B|---------------------------------------------------------------------------
G|---------------------------------------------------------------------------
D|-------------5--5--5--5-----------5--5--5--5----------5--7--8-----5--7--8--
A|---------------------------------------------------------------------------
E|--0h3--3--3--------------3--3--3----------------3--3-----------3-----------

Stave 5:

E|----------------------------------------------------------------------------
B|----------------------------------------------------------------------------
G|----------------------------------------------------------------------------
D|----------------------------------------------------------------------------
A|----------------------------------------------------------------------------
E|----------------------------------------------------------------------------

Stave 6:

E|-----------------------------------------------------------------------------------
B|-----------------------------------------------------------------------------------
G|-----------------------------------------------------------------------------------
D|-----------------------------------------------------------10--9--9h10--9----------
A|-----10--10/12--------10---------10--10/12--10v--------10------------------10------
E|--8---------------12------0v--8--------------------12--------------------------12--

Stave 7:

E|--------------------------------------------------------------------------
B|--------------------------------------------------------------------------
G|--------------------------------------------------------------------------
D|----------------------------------9-------------------------9--8----------
A|-----10--10/12--10--------10------------------10--10/12v----------10------
E|--8-------------------12------12-----0v----8--------------------------12--

Stave 8:

E|------------------------------
B|------------------------------
G|------------------------------
D|------------------------------
A|------------------------------
E|--3--3--3--3--0--3--3--0--5v--

Stave 9:

E|--
B|--
G|--
D|--
A|--
E|--

Stave 10:

E|----------------------------------------------------------------------------------------------
B|----------------------------------------------------------------------------------------------
G|----------------------------------------------------------------------------------------------
D|----------------------------------------------------------------------------------------------
A|----------------------------------------------------------------------------------------------
E|--8--8--8--8--0--8--8--8--8--0--8--8--0--12--12--12--0--0--12--12--12--0--0--12--12--7--7-----

Stave 11:

E|-------------------------------------------------------------------
B|-------------------------------------------------------------------
G|-------------------------------------------------------------------
D|------------------------------------------10--9--9h10--9-----------
A|-----10--10/12--10--10h12--10v--------10------------------10-------
E|--8-------------------------------12--------------------------12v--

Stave 12:

E|---------------------------------------------------------------------------------------------
B|---------------------------------------------------------------------------------------------
G|---------------------------------------------------------------------------------------------
D|---------------------------------------------------------------------------------------------
A|---------------------------------------------------------------------------------------------
E|--8--8--8v----0--0--0v----8--8--8v----0--0--0v----8--8--8v----0--0--0----8--8--8v--0--0--0v--

Stave 13:

E|----------------------------------------------------
B|----------------------------------------------------
G|----------------------------------------------------
D|--7p0-----4/7--7--------7p0-----4/7--7--------3--5--
A|----------------------------------------------------
E|-------8----------8--8-------8----------8--8--------

Stave 14:

E|---------------------------------------------------------------------
B|---------------------------------------------------------------------
G|---------------------------------------------------------------------
D|------------6/9--9----------------------6/9--9-----------------------
A|--10p0--------------10--10----10p0--------------10--10--10-----------
E|--------12--------------------------12----------------------12--12v--

Stave 15:

E|----------------------------------------------------------------------------------------
B|----------------------------------------------------------------------------------------
G|----------------------------------------------------------------------------------------
D|--5--5--5--7--7--7---------------------------5--5--5--7--7--7---------------------------
A|----------------------------------------------------------------------------------------
E|--------------------8--8----8--8----8--8--8--------------------8--8----8--8----8--8--8--

Stave 16:

E|----------------------------------------------------------
B|----------------------------------------------------------
G|----------------------------------------------------------
D|-----9--9--9----------------------------------------------
A|--------------10--10--10----------------------------------
E|--------------------------12--12----12--12----12--12--12--

Stave 17:

E|----------------------------------------------------
B|----------------------------------------------------
G|----------------------------------------------------
D|--5--7--------5--7--------9-------------9-----------
A|-----------------------------10------------10-------
E|--------8v----------8v-----------12v-----------12v--

http://www.guitartabcreator.com
Guitar Tab Creator is intended to store guitar tab created through the tool. It currently does not support in-line text editing. Any text you place in here will be lost. If you need to comment on your tab, please use the "Tab Notes" section located below.