twilight

(/) Slide Up  (\) Slide Down  (h) Hammer On  (p) Pull Off  (b) Bend (r) Release (v) Vibrato

E|--3--2--0------------------------------------0--------------------7--5--2--0--------
B|-----------0------------------------------0-----3-----0-----0-----------------3-----
G|--------------0----0-----2----2--------0-----------5-----5-----5--------------------
D|--------------2----2-----1----1-----2--------------------------------0--------------
A|---------------------------------------------------------0-----------------------2--
E|-----------0----------2----------3-----------4--------------------------------------



E|------------------------------3--2--------------------2--0-----2-----3-------------
B|---------------------1--0--1--------4--3--1--0-----0--------------------2----2-----
G|--2----2-----1----1-----------------------------3-----------0-----0-----3----3-----
D|--3----3-----3----3--------------0-------------------------------------------------
A|---------------------0-----------------------------------3-------------------------
E|----------0----------------------------------3-----------------------2----------2--



E|--3--2--0------------3--2--0------------------------------------0--------------------
B|-----------4----0-------------0------------------------------0-----3-----0-----0-----
G|-----------2----2----------------0----0-----1----1--------0-----------5-----5-----5--
D|---------------------------------2----2-----2----2-----2-----------------------------
A|-----------2----2-----------------------------------------------------------0--------
E|------------------------------0----------2----------3-----------4--------------------



E|--7--5--8--10----------------------------10-------8--4-----5/8--8-------7--2-----3/7--
B|---------------------------------------------8---------------------5------------------
G|------------------10----10--10--9--8--9------9----------5-------0-------------3-------
D|-----0------------7-----7----------------------------0--------------------------------
A|-----------------------------------------0---------------------------------3----------
E|---------------7------------0---------------------------------------------------------



E|--7-----5-----3-----2-----0-----------0--3--2--0----0--------------10--10--10--10-----
B|-----5-----5-----4-----4-----0-----0-------------------0---------------------------8--
G|-----5-----5-----2-----2--------0-------------------------0------------------------9--
D|--0--4-----4--------------------------------------------------------------------------
A|--------------2----------------------------------------------------------------0------
E|--------------------------0-------------------------0--------3--0---------------------



E|--8--4-----5/8--8-------7--2-----3/7--7-----5-----3-----2-----0-------------------------
B|-------------------5---------------------5-----5-----4-----4--------0-------0--1--0--3--
G|--------5-------0-------------3----------5-----5-----2-----2-----0-----0----0--2--0-----
D|-----0-----------------------------------4-----4----------------------------------------
A|---------------------------3----------0-----------2----------------------------------5--
E|--------------------------------------------------------------0-------------------------
http://www.guitartabcreator.com
Guitar Tab Creator is intended to store guitar tab created through the tool. It currently does not support in-line text editing. Any text you place in here will be lost. If you need to comment on your tab, please use the "Tab Notes" section located below.