Fluff's Travels

(/) Slide Up  (\) Slide Down  (h) Hammer On  (p) Pull Off  (b) Bend (r) Release (v) Vibrato
E|------------------9--10---------10/12--10p9--------------9---
B|----------10--12-----------------------------10----------10--
G|--11--12--------------------12-------------------11------11--
D|-------------------------9---------------------------12--12--
A|-------------------------------------------------------------
E|-------------------------------------------------------------



E|--9h10p9-------------------7h9p7--------------------------
B|----------12--------9--12---------10--------7--10---------
G|-----------------9-----------------------7----------------
D|--------------9-----------------------7------------7--11--
A|----------------------------------------------------------
E|----------------------------------------------------------



E|-----------------------------------10--
B|---------------------------10--10--10--
G|---------------------9--9--9---9---11--
D|------------7--9-----9--9--11--11--12--
A|--7--9--11--------7----------------12--
E|-----------------------------------10--



E|------------7--8p7--------7---0---0---|--0---0---
B|--7--8--10----------8-----8---8---10--|--8---10--
G|--------------------------7---9---11--|--9---11--
D|-----------------------9--9---10--12--|--10--12--
A|--------------------------10--10--12--|--10--12--
E|--------------------------------------|----------



E|-----------------------------------------------------------------------5--8--0--
B|-----------------------------------------------------------6--------6--------0--
G|-----------------------------------4--------4--7-----4--7-----4--7-----------4--
D|-----------3--------3--7-----3--7-----3--7--------7--------------------------2--
A|--------5--------5--------5--------------------------------------------------3--
E|--3--7--------7-----------------------------------------------------------------



E|--
B|--
G|--
D|--
A|--
E|--
http://www.guitartabcreator.com
Guitar Tab Creator is intended to store guitar tab created through the tool. It currently does not support in-line text editing. Any text you place in here will be lost. If you need to comment on your tab, please use the "Tab Notes" section located below.