A Scientific Railgun

(/) Slide Up  (\) Slide Down  (h) Hammer On  (p) Pull Off  (b) Bend (r) Release (v) Vibrato


E|--3--2--------------------------------------
B|--------3--3--5--5--3--3--5--5--3--3--5--5--
G|--------------------------------------------
D|--------------------------------------------
A|--------------------------------------------
E|--------------------------------------------



E|--------------5--------8--5--5--5--7--
B|--5--5--7--8-----7--------------------
G|--------------------7-----------------
D|--------------------------------------
A|--------------------------------------
E|--------------------------------------



E|--3--2--------------------------------------
B|--------3--3--5--5--3--3--5--5--3--3--5--5--
G|--------------------------------------------
D|--------------------------------------------
A|--------------------------------------------
E|--------------------------------------------



E|--------------5-----
B|--5--5--7--8-----5--
G|--------------------
D|--------------------
A|--------------------
E|--------------------



E|-----------5--------------------------2--------------0--0--
B|--5--7--8-----7--------------5--5--8-----3--0--3--3--------
G|-----------------7--4--7--7--------------------------------
D|-----------------------------------------------------------
A|-----------------------------------------------------------
E|-----------------------------------------------------------



E|--0--0-----0-----------------------
B|--------------7--5--5--4--5--7--9--
G|--------8--------------------------
D|-----------------------------------
A|-----------------------------------
E|-----------------------------------



E|--4--5--4--2--4--------7--4--
B|-----------------7--5--------
G|-----------------------------
D|-----------------------------
A|-----------------------------
E|-----------------------------



E|--0--0-----0--2--0--
B|--------4-----------
G|--------------------
D|--------------------
A|--------------------
E|--------------------



E|--0-----0--2--0--------------------------
B|-----4-----------2--7--5--4--5-----------
G|--------------------------------8--6--6--
D|-----------------------------------------
A|-----------------------------------------
E|-----------------------------------------
http://www.guitartabcreator.com
Guitar Tab Creator is intended to store guitar tab created through the tool. It currently does not support in-line text editing. Any text you place in here will be lost. If you need to comment on your tab, please use the "Tab Notes" section located below.