suicide saints

(/) Slide Up  (\) Slide Down  (h) Hammer On  (p) Pull Off  (b) Bend (r) Release (v) Vibrato


E|-----------------------------------|-------------------------------|--
B|-----------------------------------|-------------------------------|--
G|-----------------------------------|-------------------------------|--
D|----------------3--1--0h1p0--------|-------------------------------|--
A|-----0--1--------------------3--1--|-----0--1-----3--1--0h1p0------|--
E|--3--------3-----------------------|--3--------3---------------2v--|--



E|---------------------------------|-----------------------------------|--
B|---------------------------------|-----------------------------------|--
G|---------------------------------|-----------------------------------|--
D|--------------3--1--0h1p0--------|-----------------------0-----------|--
A|-----0--1------------------3--1--|-----0--1-----3--1--0-----1--0--1--|--
E|--3--------3---------------------|--3--------3-----------------------|--
http://www.guitartabcreator.com
Guitar Tab Creator is intended to store guitar tab created through the tool. It currently does not support in-line text editing. Any text you place in here will be lost. If you need to comment on your tab, please use the "Tab Notes" section located below.