blues

(/) Slide Up  (\) Slide Down  (h) Hammer On  (p) Pull Off  (b) Bend (r) Release (v) Vibrato

E|--------------------------------------------------------------------------
B|--------------------------------------------------------------------------
G|-----------------------------------------------------------2--3--2--------
D|-----------2--3--2-----------------2--3--2-----------2--5-----------5--2--
A|-----2--5-----------5--2-----2--5-----------5--2--3-----------------------
E|--3-----------------------3-----------------------------------------------



E|-----------------------------------------------------------------------------------------------------
B|-----------------------------------------------------------------------------------------------------
G|-----------------------------------4--5--4-----------------2--3--2-----------------------------------
D|-----------2--3--2-----------4--7-----------7--4-----2--5-----------5--2-----------2--3--2-----------
A|-----2--5-----------5--2--5-----------------------3--------------------------2--5-----------5--2-----
E|--3-----------------------------------------------------------------------3-----------------------3--
http://www.guitartabcreator.com
Guitar Tab Creator is intended to store guitar tab created through the tool. It currently does not support in-line text editing. Any text you place in here will be lost. If you need to comment on your tab, please use the "Tab Notes" section located below.