Castle Oblivion

(/) Slide Up  (\) Slide Down  (h) Hammer On  (p) Pull Off  (b) Bend (r) Release (v) Vibrato

E|-------------------------------------------------------------------------------
B|-------------------------------------------------------------------------------
G|-------------------------------------------------------------------------------
D|--------------------------------------------------0--7--9--0--5--7--0--4--5----
A|--4--4--4--4h5p4--4--4--4--4h5p4--4--4--4--4h5p4-----------------------------4b
E|-------------------------------------------------------------------------------



E|-------------------------------------------------------------------------------
B|-------------------------------------------------------------------------------
G|-------------------------------------------------------------------------------
D|--------------------------------------------------0--7--9--0--5--7--0--4--5----
A|--4--4--4--4h5p4--4--4--4--4h5p4--4--4--4--4h5p4-----------------------------4b
E|-------------------------------------------------------------------------------



E|-------------------------------------------------------------------------------------
B|-------------------------------------------------------------------------------------
G|-------------------------------------------------------------------------------------
D|--------------------------------------------------0--7--9--0--5--7--0--4--5----------
A|--4--4--4--4h5p4--4--4--4--4h5p4--4--4--4--4h5p4-----------------------------4/------
E|-------------------------------------------------------------------------------------
http://www.guitartabcreator.com
Guitar Tab Creator is intended to store guitar tab created through the tool. It currently does not support in-line text editing. Any text you place in here will be lost. If you need to comment on your tab, please use the "Tab Notes" section located below.