Riffs

(/) Slide Up  (\) Slide Down  (h) Hammer On  (p) Pull Off  (b) Bend (r) Release (v) Vibrato


E|-------------------------------------------------------------------------------------------
B|--------------7--8--7-----7--------------------------------0-------------------------------
G|-----------7-----------7-----7-----7--------------------7----------------------------------
D|--------9-----------------------9-----9--7--9--7--------------------5-------------7--------
A|-----7-----------------------------------------------7-----------3-----3-------5-----5-----
E|--8-----------------------------------------------8-----------5-----------5/7-----------7--



E|--
B|--
G|--
D|--
A|--
E|--



E|-----------
B|-----------
G|--7--7--4--
D|--9--9--5--
A|--7--7--3--
E|--8--8--5--
http://www.guitartabcreator.com
Guitar Tab Creator is intended to store guitar tab created through the tool. It currently does not support in-line text editing. Any text you place in here will be lost. If you need to comment on your tab, please use the "Tab Notes" section located below.