Waiting Here for You (C)

(/) Slide Up  (\) Slide Down  (h) Hammer On  (p) Pull Off  (b) Bend (r) Release (v) Vibrato


E|--------------------------
B|--8-----6-----8-----9-----
G|-----8-----8-----8-----8--
D|--------------------------
A|--------------------------
E|--------------------------



E|--------6-----------6-----------6-----
B|--9-----------8-----------6-----------
G|-----8-----8-----8-----8-----8-----8--
D|--------------------------------------
A|--------------------------------------
E|--------------------------------------



E|--------------13----------------------13----------
B|------16----------16----------15----------15------
G|--15------15----------15--15------15----------15--
D|--------------------------------------------------
A|--------------------------------------------------
E|--------------------------------------------------
http://www.guitartabcreator.com
Guitar Tab Creator is intended to store guitar tab created through the tool. It currently does not support in-line text editing. Any text you place in here will be lost. If you need to comment on your tab, please use the "Tab Notes" section located below.