Tapestry (G)

(/) Slide Up  (\) Slide Down  (h) Hammer On  (p) Pull Off  (b) Bend (r) Release (v) Vibrato
E|--------------------------------------
B|--------------------------------------
G|-----0-----0--0--0-----0--------------
D|--5-----5-----------5-----5--4--2--0--
A|--------------------------------------
E|--------------------------------------



E|------------------------------------------12------------------------------------------
B|------12------12--12------12--12--10--12----------12------10--10------10----------12--
G|--12------12----------12----------------------11------11----------11------11--11------
D|--------------------------------------------------------------------------------------
A|--------------------------------------------------------------------------------------
E|--------------------------------------------------------------------------------------
http://www.guitartabcreator.com
Guitar Tab Creator is intended to store guitar tab created through the tool. It currently does not support in-line text editing. Any text you place in here will be lost. If you need to comment on your tab, please use the "Tab Notes" section located below.