Oceans (D)

(/) Slide Up  (\) Slide Down  (h) Hammer On  (p) Pull Off  (b) Bend (r) Release (v) Vibrato
E|--------7----------14--------9--10--
B|------------------------------------
G|-----7---------14---------9---------
D|--5--------12----------7------------
A|------------------------------------
E|------------------------------------



E|--------------------------------------------
B|--7-----5--7-----5--------5-----8--------8--
G|-----7--------------6--------------9--------
D|--------------7--------7-----9--------9-----
A|--------------------------------------------
E|--------------------------------------------



E|-------------------------------------------------------
B|-------------------------------------------------------
G|--------7----------9----------11--------6--7--------4--
D|-----9---------11---------12---------7-----------5-----
A|--9--------11---------12----------7-----------5--------
E|-------------------------------------------------------
http://www.guitartabcreator.com
Guitar Tab Creator is intended to store guitar tab created through the tool. It currently does not support in-line text editing. Any text you place in here will be lost. If you need to comment on your tab, please use the "Tab Notes" section located below.