Cannons (A)

(/) Slide Up  (\) Slide Down  (h) Hammer On  (p) Pull Off  (b) Bend (r) Release (v) Vibrato

E|--12--7--14--9---
B|--14--9--15--10--
G|--14--9--16--11--
D|-----------------
A|-----------------
E|-----------------



E|--10------12------9----------------
B|------10------12--10--10--9--7--9--
G|--7-------9---11--9---9---9--9--9--
D|------7-------9---11---------------
A|------------------9----------------
E|------------------9----------------
http://www.guitartabcreator.com
Guitar Tab Creator is intended to store guitar tab created through the tool. It currently does not support in-line text editing. Any text you place in here will be lost. If you need to comment on your tab, please use the "Tab Notes" section located below.