Unnamed

(/) Slide Up  (\) Slide Down  (h) Hammer On  (p) Pull Off  (b) Bend (r) Release (v) Vibrato


E|--2--2--2--2--2h3--5--2--3--2--0--
B|----------------------------------
G|----------------------------------
D|----------------------------------
A|----------------------------------
E|----------------------------------



E|-----------------------------------------------
B|-----------------------------------------------
G|-----------------------------------------------
D|--2--2--2--2--3--2--2--2--2--5--2--3--2--0--0--
A|--2--2--2--2--3--2--2--2--2--5--2--3--2--0--0--
E|--2--2--2--2--3--2--2--2--2--5--2--3--2--0--0--



E|-----------------------------------------------
B|-----------------------------------------------
G|-----------------------------------------------
D|--0--0--0--0--2--3--0--5--6--0--6--2--0--3--2--
A|--0--0--0--0--2--3--0--5--6--0--6--2--0--3--2--
E|--0--0--0--0--2--3--0--5--6--0--6--2--0--3--2--
http://www.guitartabcreator.com
Guitar Tab Creator is intended to store guitar tab created through the tool. It currently does not support in-line text editing. Any text you place in here will be lost. If you need to comment on your tab, please use the "Tab Notes" section located below.