Cavatina

(/) Slide Up  (\) Slide Down  (h) Hammer On  (p) Pull Off  (b) Bend (r) Release (v) Vibrato


E|-7-----------7-----4-----------9------------------------------7-9--------------------------
B|-------5---------4---4---10/12------10-------------10------10-------10---------------12-10-
G|-----4---4-----4-------4----------9----9---------9----9-----------9----9---------8---------
D|---6-------6-------------------11--------11---11--------11------7--------7-----7---7-------
A|-------------6------------------------------9--------------------------------9-------------
E|-0-----------------------9---------------------------------7---------------7---------------



E|-7---------------------5-4-4-----------2-----------0-2-----------0-----------0-----------
B|-------9-----------3-------------2-----------2-------------0-----------0-----------0-----
G|-----8---8-------4---4---------2---2-------2---2---------0---0-------0---0-------2---2---
D|---9-------9---6-------------2-------2---4-------4-----0-------0---2-------2---4-------4-
A|---------------------------0-----------5-------------------------3-----------2-----------
E|-0-----------0---------------------------------------3-----------------------------------



E|-0-----------0-----------0-------------11-12-----------12-------12---11-9-9-11/12-11---------
B|-----7-----------------0-0---12---9-12-----------9------------9----------------------11------
G|---------8-------1---1---1------9--------------9---9--------9---9-----------------11----11---
D|---4---7---7---4---2-----2-------------------9-------9----9--------9--------9--------------9-
A|-2-----------------------------------------------------9------------------9------------------
E|-------------0-----------0----------------9--------------------------------------------------



E|---------9-7-5----------------7-------4-------------------0---2-4-----------5-----------
B|-------9-----------2-----10-------7---------4-----------3---3---------2-----------7-----
G|-----8-----------2---2----------8---------4---4-------4-------------2---2-------6---6---
D|---9-----9-----2-------2------7---7-----2-------2---2-------------2-------2---7-------7-
A|----------------------------9-------9---------------------------------------5-----------
E|-7-----------2-----------7------------0-----------0-------------0-----------------------



E|-6-----------7-----------7------------12-----0-----0-----------------------0-----------
B|-------7---------4-7-4----------7----------0---0---1-1-1-3-3-0-0-1-1---0-1-5-----------
G|-----6---6-----4-------4------7---7------0-------0-2-----------------2-------5-5-7-7-4-
D|---8-------8----------------9-------9--------------------------------------------------
A|-7-----------6-------------------------------------2-----------2-----------------------
E|-------------------------10-----------8------------------------------------------------



E|-------------------------------2-----------------------------1---------1-3-----3-----
B|-----------------------------2---2-------3-----2-3-----3---------4---4-------4---4---
G|-4-5-2---------------------------------------4-------3---3---------3-------3-------3-
D|-------4-2-----------------2-------2---4---4-------3-------3-----1-------------------
A|-----------3-2-0-------0-1-----------2-------------------------4---------4-----------
E|-----------------3-2-3---------------------------4-----------2-----------------------



E|-6---------6-7-----------7---7---------------------------------------------9-5-------
B|-----9---9---------5-----------5---2-0-----------0---0-----2-0-----------------9-7-5-
G|-------8---------4---4-------4---4---------2-----------2-----------1-------9-6-------
D|-----6-----------------------------------1---1-------1---1-------0---0---------------
A|---6-----------7-------7---7-----------2-------2---2-----------2-------2-0-----------
E|-7-----------4-----------4-----------2-----------2-----------0-----------------------



E|-----------------2-------0-------------4-7-0-4-5-------4-----------2-------2---0-2-----------
B|-5-----------5-------4---------------0---------------3-------2-----------2-------------0-----
G|-------2-----------2---2-2---1-----1-----------------------2---2-------2---2---------0---0---
D|-----2---2-----4-----------4---1-2-------------------4---2-------2---4-------4-----0-------0-
A|---4-------4-2-----------------------------------------0-----------5-------------------------
E|-2-----------------------0-------------------------------------------------------3-----------



E|-0---------------------------2-------0-------------4-7-0-4-7-11-12-------2/4-2---0---
B|-------0-----5-----------5-------4---------------0-----------9-----4-5-5-------5-----
G|-----0---0---------2-----------2---2-2---1-----1-------------9-----2---2---------2-4-
D|---2-------2-----2---2-----4-----------4---1/2---------------9-----2---4---------4-6-
A|-3-------------4-------4-2-----------------------------------11----4---2-------------
E|-------------2-----------------------0-----------------------9-----2-------------0-0-
http://www.guitartabcreator.com
Guitar Tab Creator is intended to store guitar tab created through the tool. It currently does not support in-line text editing. Any text you place in here will be lost. If you need to comment on your tab, please use the "Tab Notes" section located below.