For All We Know

(/) Slide Up  (\) Slide Down  (h) Hammer On  (p) Pull Off  (b) Bend (r) Release (v) Vibrato

E|-10-----10-7-9-10-7-9-----2-5-7-9-5-7-----7-3-5-7-3-5-----0-----14------14-10-12-14-10-
B|-7----------------------------------------3-----------------2-----------10-------------
G|-7------7-----------------6-------------0-4-------------------2------11----------------
D|-0----7-----------------7-------------0-----------------2----------0-------------------
A|-0--9-----------------7-----------------------------0-4--------------------------------
E|-0------------------0---------------0---------------------------0----------------------



E|-12------12-9-10-12-9-10-----10-7-9-10-7-5-------5-------3---------------------------0/2-
B|---------10------------------8-----------------------------------3-----------------3-----
G|-------9-------------------7-----------------6-------6-------2-------2-------2-------2---
D|----11-------------------9-----------------7---7---5---5---4---0-4-0-------0---------4---
A|-----------------------------------------0-------0---------------------4-2-----2-0-------
E|-0--------------------0----------------------------------0-------------------------------



E|-------0-0---------------0---7-0-------0---------------------0-5-------5-----------------------
B|-7---------------------0---0---0-----0---0-----------5---7---8-7-------7-------------------3---
G|---------------------4---------0---0-------0-------0---0---0-------7-----7-------------2-------
D|-----9-----9-9---------------------------------------------------7---7-----7-------4-0---4-----
A|---7-----------7---7-------------7-------------------------------------------0---0-----------0-
E|-6---------------6-------------5-------------5-7-8-------------0---------------0---------------



E|-----5---7-----9-10-------------7-10-------0-----------7---12---------9----------9---------
B|-----3-----------------------------------0---0---------9-----------12-12---------10--------
G|---2---2-----6--------7-------7----------------------9---9-------9----------9-------9----9-
D|-0---------7---------------------------6-------6---0----------12---------11---11------11---
A|---------4----------9---9---9--------7-----------7--------------------0--------------------
E|-----------------9--------7-------6------------------------9-------------------------------



E|-----5---10---------7-----7-----------7-------0---------------------------0-2-2-----------0-
B|-----8-----------10-------0---------------------7-------7---------------3-----0-------0-----
G|---7---7-------7------0-----0---0---------7-----6---6-----6-------4-------2---0---0-----0---
D|-0----------11----------0-----0-----0-0-0-0-0-0-7-----7---------4---------4---------0-------
A|--------------------------------------------------4---------4-2-----2-0---------2-----------
E|---------0----------5-------------5-------------4-----------------------------2-------------



E|-0-2-3-2-0----2-0-2-2-
B|------------------3-3-
G|------------------2-2-
D|------------------0-0-
A|-0--------------------
E|----------------------
http://www.guitartabcreator.com
Guitar Tab Creator is intended to store guitar tab created through the tool. It currently does not support in-line text editing. Any text you place in here will be lost. If you need to comment on your tab, please use the "Tab Notes" section located below.