Key A GD

(/) Slide Up  (\) Slide Down  (h) Hammer On  (p) Pull Off  (b) Bend (r) Release (v) Vibrato
E|--5--------5--
B|--------------
G|--------------
D|-----------0--
A|-----0--3-----
E|--3-----------



E|--3--0--------
B|--------3--2--
G|--------------
D|-----------0--
A|-----0--3-----
E|--3-----------



E|-----------------
B|--3-----1--------
G|-----2-----2-----
D|-----------0-----
A|-----0--3--------
E|--3--------------



E|-----------------------------
B|-----3-----------------------
G|--------------2--------------
D|--------------0-----------0--
A|--------0--3--------0--3-----
E|--3--------------3-----------



E|--------------3-----------------------
B|--1-----------------------------------
G|--------------------------2-----------
D|-----------0-----------0-----------0--
A|-----0--3--------0--3--------0--3-----
E|--3-----------3-----------3-----------
http://www.guitartabcreator.com
Guitar Tab Creator is intended to store guitar tab created through the tool. It currently does not support in-line text editing. Any text you place in here will be lost. If you need to comment on your tab, please use the "Tab Notes" section located below.