GD Burt

(/) Slide Up  (\) Slide Down  (h) Hammer On  (p) Pull Off  (b) Bend (r) Release (v) Vibrato
E|-----------------------
B|-----------------------
G|--------------0-----2--
D|-----------3--------0--
A|-----0--2--------2--0--
E|--3--------------------



E|-----------------------
B|-----------------------
G|--------------0-----2--
D|-----------3-----3--0--
A|-----0--2--------------
E|--3--------------------



E|-----------------0--------------
B|-----1--0-----1-----3--1--------
G|-----2--2--2-----------2--0--2--
D|--0--------------------------0--
A|--------------------------------
E|--------------------------------



E|--------------------------------------------2--3--2--0-----------
B|--1-----------------------------------1--------------1--3--------
G|--0--------------------------------2-----2--------------2--0--2--
D|--2--------------2--0-----------0-----------------------------0--
A|--3--3--2--0--3--------3-----0-----------------------------------
E|--------------------------2--------------------------------------
http://www.guitartabcreator.com
Guitar Tab Creator is intended to store guitar tab created through the tool. It currently does not support in-line text editing. Any text you place in here will be lost. If you need to comment on your tab, please use the "Tab Notes" section located below.