สะอาด/น้ำท่วมหลังเป็ด...ชื่อไหนดีกว่ากัน? ลองเล่นดูก่อน! - เกด, โอ๊ต, เดฟ, โบ.

(/) Slide Up  (\) Slide Down  (h) Hammer On  (p) Pull Off  (b) Bend (r) Release (v) Vibrato

สะอาด/น้ำท่วมหลังเป็ด...ชื่อไหนดีกว่ากัน? ลองเล่นดูก่อน! - เกด, โอ๊ต, เดฟ, โบ.

Main Riff:

E |----------------------------------------------------------------
B |----------------------------------------------------------------
G |----------------------------------------------------------------
D |----------------------------------------------------------------
A |---------4~~~----------------2~~~--------4~~~----------------3p2
C#|-0~~~3h5-----0-0-3p0-3p0-3h5-----0~~~3h5-----0-0-3p0-3p0-3h5----


รอบสุดท้ายค้าง A: 2~~~ ไว้และรอ 4 จังหวะก่อนเข้า Verse.


Verse (lead guitar and bass):


E |-------------------------------- E |--------------------------------
B |-------------------------------- B |--------------------------------
G |-------------------------------- G |--------------------------------
D |---2---------------------------- D |---2----------------------------
A |-------------2h4---2------------ A |-------------2h4---2------------
C#|-0---0-0-3h5-----0---0-0-3-0-2h3 x3 then: C#|-0---0-0-3h5-----0---0-0-3-0-3p2 x1


(Alt) Verse

E |------------------------------------------------------------------------------------------------
B |------------------------------------------------------------------------------------------------
G |------------------------------------------------------------------------------------------------
D |---6-------------------------------4-------------------------------2----------------------------
A |-------------2h4---2-------------------------2h4---2-------------------------2h4---2------------
C#|-0---0-0-3h5-----0---0-0-3-0-2p3-0---0-0-3h5-----0---0-0-3-0-2p3-0---0-0-3h5-----0---0-0-3-0-2p3

...(Alt) Verse finish

E |--------------------------------
B |--------------------------------
G |--------------------------------
D |---4----------------------------
A |-------------2h4---2------------
C#|-0---0-0-3h5-----0---0-0-3-0-3p2



Bridge:

E |------------------------------------------------------------
B |------------------------------------------------------------
G |------------------------------------------------------------
D |-----2-----4-3-2~~~~~~~~~~~2~~~~----------------------------
A |-2h4--------------------------------------------------------
C#|-------0--0----------0-0~~~--0h3~~~3-3---3-3-3-3-3h5-5-5-5p3

Guitar Tab Creator is intended to store guitar tab created through the tool. It currently does not support in-line text editing. Any text you place in here will be lost. If you need to comment on your tab, please use the "Tab Notes" section located below.