I Fought The Law - The Clash - lead riffs

(/) Slide Up  (\) Slide Down  (h) Hammer On  (p) Pull Off  (b) Bend (r) Release (v) Vibrato

E|----------------------------------------------------------------------|---
B|-10v-10-10-10v-10-10-10v-10-10-10v-10-10-10v-10-10-10v-10-10-10-8-7---|---
G|--------------------------------------------------------------------7-|---
D|----------------------------------------------------------------------|---
A|----------------------------------------------------------------------|---
E|----------------------------------------------------------------------|---



E|----------------------------------------|-|-|-
B|-------------------------------17-19b20-|-|-|-
G|-------------11h12-12/14-16-18----------|-|-|-
D|-------12h14----------------------------|-|-|-
A|-12h14----------------------------------|-|-|-
E|----------------------------------------|-|-|-



E|----------------------------------------------------------------------------------------------------------------|--
B|----------------------------------------------------------------------------------------------------------------|--
G|----------------11h12--12/14--14v--14--14--14v--14--14--14v--14--14--14v--14--14--14v--14--14--14--12--11-------|--
D|---------12h14---------------------------------------------------------------------------------------------12v--|--
A|--12h14---------------------------------------------------------------------------------------------------------|--
E|----------------------------------------------------------------------------------------------------------------|--
http://www.guitartabcreator.com
Guitar Tab Creator is intended to store guitar tab created through the tool. It currently does not support in-line text editing. Any text you place in here will be lost. If you need to comment on your tab, please use the "Tab Notes" section located below.