Avril 14th - Aphex Twin

[code]
(/) Slide Up (\) Slide Down (h) Hammer On (p) Pull Off (b) Bend (r) Release (v) Vibrato


E|--8--------------11--9--8--------
B|-----6--9------------------9-----
G|-----------8h10------------------
D|---------------------------------
A|---------------------------------
E|---------------------------------



E|--20-----------------
B|------18--21--18p16--
G|---------------------
D|---------------------
A|---------------------
E|---------------------
[/code]
[url]http://www.guitartabcreator.com[/url]
Guitar Tab Creator is intended to store guitar tab created through the tool. It currently does not support in-line text editing. Any text you place in here will be lost. If you need to comment on your tab, please use the "Tab Notes" section located below.