Black Veil Brides - In The End Riffs

(/) Slide Up  (\) Slide Down  (h) Hammer On  (p) Pull Off  (b) Bend (r) Release (v) Vibrato

Stave 1:

E|-----------------------------------7--9--7--9--10--9--7----------------------7-------------
B|-----------10--9--7--9--10--9--10------------------------10--9--10--9--7--9-----10--9--10--
G|-------------------------------------------------------------------------------------------
D|-------------------------------------------------------------------------------------------
A|-------------------------------------------------------------------------------------------
E|--4--4--2----------------------------------------------------------------------------------

Stave 2:

E|-----------------------------------7--9--7--9--10--9--7------------------------------9--
B|-----------10--9--7--9--10--9--10------------------------10--9--10--9--7--9--10--12-----
G|----------------------------------------------------------------------------------------
D|----------------------------------------------------------------------------------------
A|----------------------------------------------------------------------------------------
E|--4--4--2-------------------------------------------------------------------------------

Stave 3:

E|--10--12--14--
B|--------------
G|--------------
D|--------------
A|--------------
E|--------------

http://www.guitartabcreator.com
Guitar Tab Creator is intended to store guitar tab created through the tool. It currently does not support in-line text editing. Any text you place in here will be lost. If you need to comment on your tab, please use the "Tab Notes" section located below.