Pixies-Where is My Mind-Rocksmith

(/) Slide Up  (\) Slide Down  (h) Hammer On  (p) Pull Off  (b) Bend (r) Release (v) Vibrato
E|---4---4---4---4---4---4-0-0-0-0-0-0-0-0-0-
B|-5---5---5---5---4---4---5-5-5-4-5-5-5-4-5-
G|-------------------------------------------
D|-------------------------------------------
A|-------------------------------------------
E|-------------------------------------------



E|--0--4--4--5--
B|--0--5--4--5--
G|--1--6--5--6--
D|--2--6--6--7--
A|--2--4--6--7--
E|--0--4--4--5--
http://www.guitartabcreator.com
Guitar Tab Creator is intended to store guitar tab created through the tool. It currently does not support in-line text editing. Any text you place in here will be lost. If you need to comment on your tab, please use the "Tab Notes" section located below.