Ozzy Osbourne-Iron Man-Marty

(/) Slide Up  (\) Slide Down  (h) Hammer On  (p) Pull Off  (b) Bend (r) Release (v) Vibrato


E|-----------------------------------------------------------------------
B|-----------------------------------------------------------------------
G|-----------------------------------------------------------------------
D|-------5p4-5p4-5p4-------------------5p4-5p4-5p4-----------------------
A|---5h7-------------5-5h7-7---5-5h7-7-------------5-5h7-7---5-----------
E|-7-------------------------7-----------------------------7---7-6-5-5-5-



E|---------------------------
B|---------------------------
G|---------------------------
D|---------------------------
A|-----------5---------------
E|-0h4-5-6-7---7-6-5-5-5-0-4-
http://www.guitartabcreator.com
Guitar Tab Creator is intended to store guitar tab created through the tool. It currently does not support in-line text editing. Any text you place in here will be lost. If you need to comment on your tab, please use the "Tab Notes" section located below.