Lynrd Skynard-Sweet Home Alabama

(/) Slide Up  (\) Slide Down  (h) Hammer On  (p) Pull Off  (b) Bend (r) Release (v) Vibrato


E|-----------------------------------
B|--------3-----------3--------------
G|-----------2-----------0--------0--
D|--------------------------------0--
A|--0--0--------3--3-----------------
E|--------------------------3--3-----



E|--------------
B|--2p0--3p0--5b
G|--------------
D|--------------
A|--------------
E|--------------
http://www.guitartabcreator.com
Guitar Tab Creator is intended to store guitar tab created through the tool. It currently does not support in-line text editing. Any text you place in here will be lost. If you need to comment on your tab, please use the "Tab Notes" section located below.