Kiss-She

(/) Slide Up  (\) Slide Down  (h) Hammer On  (p) Pull Off  (b) Bend (r) Release (v) Vibrato


E|-----------------------------------------------------
B|-----------------------------------------------------
G|-----12-12-------------------------------------------
D|-5-5-12-12---------3b0---------3b0---5-5-3h5-5-5-5---
A|-5-5-10-10\3-3h4h5-----5-3h4h5-----5-5-5-3-5-5-5-5---
E|-3-3---------------------------------3-3-----3-3-----



E|---------------------
B|---------------------
G|---------------------
D|-------3-0---5-3---3-
A|-3h4h5-----5-----5---
E|---------------------
http://www.guitartabcreator.com
Guitar Tab Creator is intended to store guitar tab created through the tool. It currently does not support in-line text editing. Any text you place in here will be lost. If you need to comment on your tab, please use the "Tab Notes" section located below.