Johnny Cash-Hot Rod Lincoln

(/) Slide Up  (\) Slide Down  (h) Hammer On  (p) Pull Off  (b) Bend (r) Release (v) Vibrato


E|---------------------------------------------------------------------------------------
B|---------------------------------------------------------------------------------------
G|-------------------------------------------------------------------------------1-1-2-2-
D|-------------------------------------------2-2-4-4-5-5-4-5-4-2---2-----1-1-4-4---------
A|-----------2-2-4-4-5-5-4-5-4-2---2-0-0-4-4---------------------4---2-2-----------------
E|-2b0-0-4-4---------------------4-------------------------------------------------------



E|-------------
B|-------------
G|-1-2-1-------
D|-------4-1-4-
A|-------------
E|-------------
http://www.guitartabcreator.com
Guitar Tab Creator is intended to store guitar tab created through the tool. It currently does not support in-line text editing. Any text you place in here will be lost. If you need to comment on your tab, please use the "Tab Notes" section located below.