Johnny Cash-Folsom Prison Blues

(/) Slide Up  (\) Slide Down  (h) Hammer On  (p) Pull Off  (b) Bend (r) Release (v) Vibrato


E|-------------------------
B|-------------------------
G|-------------------------
D|-----------1--1----------
A|--2--2--2--------2-------
E|--------------------2b0--



E|-----7-10-7-10-7-----7-10-7-10-----7-10-7-10-7-----7-10-7-10-7-4----
B|-8h9-------------8h9-----------8h9-------------8h9---------------5v-
G|--------------------------------------------------------------------
D|--------------------------------------------------------------------
A|--------------------------------------------------------------------
E|--------------------------------------------------------------------
http://www.guitartabcreator.com
Guitar Tab Creator is intended to store guitar tab created through the tool. It currently does not support in-line text editing. Any text you place in here will be lost. If you need to comment on your tab, please use the "Tab Notes" section located below.