Green Day-Holiday-Marty

(/) Slide Up  (\) Slide Down  (h) Hammer On  (p) Pull Off  (b) Bend (r) Release (v) Vibrato


E|--------------------------------------
B|--------------------------------------
G|--------------------------------------
D|--10--10--------------13--13----------
A|--8---8---11--11--11--11--11--13--13--
E|----------9---9---9-----------11--11--



E|--8---8---9---9---9---11--11--11--11--11--
B|--9---9---9---9---9---12--12--12--11--11--
G|--10--10--10--10--10--13--13--13--12--12--
D|--10--10--11--11--11--13--13--13--13--13--
A|--8---8---11--11--11--11--11--11--13--13--
E|--8---8---9---9---9---11--11--11--11--11--
http://www.guitartabcreator.com
Guitar Tab Creator is intended to store guitar tab created through the tool. It currently does not support in-line text editing. Any text you place in here will be lost. If you need to comment on your tab, please use the "Tab Notes" section located below.