Bon Jovi-You Give Love a Bad Name-Marty

(/) Slide Up  (\) Slide Down  (h) Hammer On  (p) Pull Off  (b) Bend (r) Release (v) Vibrato


E|--------------------------------------------
B|--------------------------------------------
G|--10b8--10--10b8------8h10b8--10v-----------
D|------------------10---------------10v--10--
A|--------------------------------------------
E|--------------------------------------------



E|--------------------------------------
B|--------------------------------------
G|--------------------------------------
D|--------------1--1----------------1v--
A|--3-----1--3--------3--3-----1h3------
E|-----3--------------------3-----------
http://www.guitartabcreator.com
Guitar Tab Creator is intended to store guitar tab created through the tool. It currently does not support in-line text editing. Any text you place in here will be lost. If you need to comment on your tab, please use the "Tab Notes" section located below.