Black Keys-My Next Girl-Rocksmith

(/) Slide Up  (\) Slide Down  (h) Hammer On  (p) Pull Off  (b) Bend (r) Release (v) Vibrato

E|--------------------------------------------------
B|--------------------------------------------------
G|--------------------------------------------------
D|--2-----2--4--6--6--6--6--6--6--6--4--4--4--4--2--
A|-----4--------------------------------------------
E|--------------------------------------------------



E|----------------------
B|----------------------
G|----------------------
D|----------------------
A|--2--4--2h4--2--------
E|----------------0--0--



E|---------------------------------
B|---------------------------------
G|---------------------------------
D|--------2-----------2h4p2--------
A|--2--4-----4--2--4---------4--2--
E|---------------------------------
http://www.guitartabcreator.com
Guitar Tab Creator is intended to store guitar tab created through the tool. It currently does not support in-line text editing. Any text you place in here will be lost. If you need to comment on your tab, please use the "Tab Notes" section located below.