What Lies Below - Untitled


Intro
A#|-----------------------------------------
F |----------------------------------1-4-3--
A#|----------------------------------1-4-3--
F |--0-0-0-xxx-0x-0x-0x--0-0x-0x-0x---------
X3
A#|-----------------------------------------
F |-----------------------------------------
A#|----------------------------------5-6-3--
F |--0-0-0-xxx-0x-0x-0x--0-0x-0x-0x--3-4-1--

A#|-----------------------------------------------------
F |----------------------------------------1-4-3-0~~~~--
A#|----------------------------------5-6-3-1-4-3-0~~~~--
F |--0-0-0-xxx-0x-0x-0x--0-0x-0x-0x--3-4-1--------------

(Ben fill)

Bridge thing dunno lol
A#|--------------------------------
F |----------8----------------1----
A#|-----------5-6b--------------4--
F |--0--0-5b--------0-1b-0-1b------

A#|--------------------------------
F |----------8---------------------
A#|-----------5-6b-----------------
F |--0--0-5b--------0-1b--xxx-xxx--
X2
A#|--------------------------------
F |----------8----------------1----
A#|-----------5-6b--------------4--
F |--0--0-5b--------0-1b-0-1b------

A#|--------------------------------
F |----------8---------------------
A#|-----------5-6b--------2-2-2----
F |--0--0-5b--------0-1b--0-0-0----

(Ben Fill)

Break down
A#|-----------------------------------
F |-----------------------------------
A#|--2-2-2--2-2-2--2-2-2--2-2-2-------
F |--0-0-0--0-0-0--0-0-0--0-0-0-0-0---
X2
A#|----------------------------------------------
F |------------------------------4---------------
A#|--2-2-2--2-2-2--2-2-2-2--------1-1-2-(pinch)--
F |--0-0-0--0-0-0--0-0-0-0--0-1b-----------------

Intro


Clean/distortion are all around these chords, cant be botherd tabbing it out lol:

G |-----------------8-----------------
D#|--10---10---10---10----------------
A#|--10---10---10---10----------------
F |--8----7----0----0-----------------
A#|--8----7----0----0----3-3-3-5-5-5--
F |-----------------------------------




Guitar Tab Creator is intended to store guitar tab created through the tool. It currently does not support in-line text editing. Any text you place in here will be lost. If you need to comment on your tab, please use the "Tab Notes" section located below.