What Lies Below - A Second Chance guitar tabs.

What Lies Below - A second chance. {X = Palm mutes}   GUITAR 2 (YOU)

A#|----------------------------------------------------------0--
F |----------------------------------------------------1x-1/4-4- Intro x2
A#|--------------------------------------------3xx-6xx-1x-------
F |--0~-xxx-xxx-xxxxxx-xxx-xxx--0~-xxx-xxx-xxx-1xx-4xx----------


F |------------------------------------------------------------------ |
A#|------------------------------------------------------------------
F |--12b-00-12b-0-0--0-12-0-12131313-10b-00-10b-0-0--0-10-0-10131313-

F |---------------------------------------------------------1------- |
A#|-----------------------------------------------------------------
F |--12b-00-12b-0-0--0-12-0-12131313-10b-00-10b-0-0--0-10-0--x4-x1-- Verse 1

F |------------------------------------------------------------------ |
A#|------------------------------------------------------------------
F |--12b-00-12b-0-0--0-12-0-12131313-10b-00-10b-0-0--0-10-0-10131313-

F |----------------------------------------------------------- |
A#|-----------------------------------------------------------
F |--12b-00-12b-0-0--0-12-0-12131313-10b-00-10b-0-0--0-10-0---



F |--1-----------1-----------1-----------1------1------1------ Bridge(1) x3
A#|-----------------------------------------------------------
F |---x4-x1-------x4-x1-------x4-x1-------x4-x1--x4-x1--x4-x1-

(guitar fill same as next Bridge(2)

F |------------------
A#|------------------ Repeat, you'll eventually get the pattern. Bridge (2)
F |--1-x1-x1-1-x1-x1-


Intro x2


F |------------------------------------------------------------------ |
A#|------------------------------------------------------------------
F |--12b-00-12b-0-0--0-12-0-12131313-10b-00-10b-0-0--0-10-0-10131313-

F |---------------------------------------------------------1------- |
A#|-----------------------------------------------------------------
F |--12b-00-12b-0-0--0-12-0-12131313-10b-00-10b-0-0--0-10-0--x4-x1-- Verse 2

F |--12b-00-12b-0-0--0-12-0-12131313-10b-00-10b-0-0--0-10-0-10131313- | <- Different from Verse 1
A#|------------------------------------------------------------------
F |------------------------------------------------------------------

F |--12b-00-12b-0-0--0-12-0-12131313-10b-00-10b-0-0--0-10-0-1-------- |
A#|------------------------------------------------------------------
F |-----------------------------------------------------------x4-x1--



F |--0xx-xx-x-xx-xxx-00-xx-xx-x-xx-xxx-00 Repeat. Breakdown and the Workup are the same.
if it helps the rythm is the same as the Verse



F |---------------------------------------------------------------------------
A#|-------------------------------------3-xx-xx-x-xx-xxx-30xx-xx-x-xx-xxx-0--- CHROUS!!!!!11
F |--0xx-xx-x-xx-xxx-03xx-xx-x-xx-xxx-3-------------------------------------0-


Last breakdown, Same as intro but slower ;D as usual.
Guitar Tab Creator is intended to store guitar tab created through the tool. It currently does not support in-line text editing. Any text you place in here will be lost. If you need to comment on your tab, please use the "Tab Notes" section located below.