What Lies Below - Revenant

What Lies Below - Untitled. {X = Palm mutes}   GUITAR 2 (YOU)

A#|----------------------------------------
F |---------------------------------------- Intro x6
A#|----------------------------2xxxxxxxxxxx
F |--0--0--xxxxxxxxxxxx--0--0--1xxxxxxxxxxx


A#|------------------------------------------6--6---------------------------
F |--6~--7--4----------------------------6~--3--2---------------------------
A#|--5~--6--3----------------------------5~--3--2--------------------------- Verse x2
F |--3~--4--1--0xx-0xx-00--xxxxxxxxxxxx--3~--------0xx-0xx-00--xxxxxxxxxxx--


A#|---------------------------------------------------------------------------------- |
F |---------------------------------------------------------------------------------- |
A#|---------------------------------------------------------------------------------- |
F |--0xx-0xx-12-0-xx0-xx12-0-xx-12x-13x-12x--0xx-0xx-12-0-xx0-xx12-0-xx-12x-15x-12x-- |
| Chorus x4
|
A#|---------------------------------------------------------------------------------- |
F |-----------8---------8----------8-------------7---------7----------7-------------- |
A#|---------------------------------------------------------------------------------- |
F |--5xx-5xx----5-xx5-xx--5-xx-5x---x5--4xx-4xx----4-xx4-xx--4-xx-4x---x4------------ |


A#|-------------------------------------------------------------------
F |-------------------------------------------------------------------
A#|------------------------------------------------------------------- Bridge x4
F |--0xxx-xx12-0xxx-x-xxx-x-12-13-13-0xxx-xx12-0xxx-x-xxx-x-12-15-12--

Repeat:

intro x6

Verse x2

Chorus x4

Bridge x4 End on 0~~~~~~~

Work out breakdown rythm.
Guitar Tab Creator is intended to store guitar tab created through the tool. It currently does not support in-line text editing. Any text you place in here will be lost. If you need to comment on your tab, please use the "Tab Notes" section located below.