What Lies Below - Hey Slender, where did you get your suit?

Hey Slender, where did you get your suit?

Song Intro: Guitar 1 Guitar 2

A#|--------------------------------------------------- A#|-------1~~~~~~~~--
F |--0xxxx-1xx-0x0xx-1x-1/4--0xxxx-1xx-0x0xx-1-------- x4 F |-------1~~~~~~~~-- x2
A#|--------------------------------------------4-1---- A#|------------------
F |------------------------------------------------2-- F |--0xxx------------


INTRO
A#|-------1-----------------------1------------------
F |-------1-----------------------1-----------1------
A#|------------------5---5/6-------------------4-1--- x2
F |--0xxx--xx-0x0xx--3-x-3/4--0xxx--xx-0x0xx------2--


CHORUS (Notes in order - B, D, Bb, Db, D, Db Repeat)
A#|------------------------------------
F |--1~~----4~~--0~~--3~~----4~~--3~~-- x2 JAKE WRITE SOLO THING HERE
A#|--1~~----4~~--0~~--3~~----4~~--3~~--
F |------------------------------------



Break down 1
A#|-------1------
F |-------1------ x3 before break down.
A#|--------------
F |--0xxx--xxx---

A#|----------------1---------------------------------------------1-------------------
F |----------------1---------------------------------------------1-------------------
A#|------------------2~2~------------------------------------------2~2~--------------
F |--xxxx---xxxx-----1~1~-xxxx----xxxx-xxxx-xxxx---xxxx---xxxx-----1~1~-xxxx----0~~--


BRIDGE
A#|---------------------------------------------------------------
F |--0-1-4-0-4-1-------------0-1-4-0-4-1-----------------9-7-6---- x4
A#|--------------4-----------------------4---------------------9--
F |----------------0-0-0-0-0---------------0-0-0-0-5-7-0----------

CHORUS x2

A#|-------1------
F |-------1------ x3 before Intro.
A#|--------------
F |--0xxx--xxx---


INTRO x4 END ON MASSIVE OPEN


BREAKDOWN 2
A#|------------------------------------------------------
F |--0xxx-1-x-0--xxx-0x-0x-0-0xxx-1-x-0--xxx-12x-13x-12-- x2
A#|------------------------------------------------------
F |------------------------------------------------------

A#|-------1-----------------------1----------------------
F |-------1-----------------------1---------------------- x4
A#|------------------------------------------------------
F |--0xxx---x-0--xxx-0x-0x-0-0xxx---x-0--xxx-12x-13x-12--
Guitar Tab Creator is intended to store guitar tab created through the tool. It currently does not support in-line text editing. Any text you place in here will be lost. If you need to comment on your tab, please use the "Tab Notes" section located below.