What Lies Below - E.T. Katie Perry cover.

What Lies Below Katie Perry E.T. Cover - Guitar 2 You.


A#|------------------------------------------------------
F |------------------------------------------------------ Intro x4
A#|------------------------------------------------------
F |--0------0----xxx-x-xxx-0---0x-0x-00-xxx-x-xxx-x-xxx--



A#|---------------
F |--3--7--2--5b-- Bridge x1
A#|--3--7--2--5b--
F |---------------



A#|---------------------------------------------------------------------------
F |--3rd---------------------------------6th----------------------------------
A#|--3rd-xx-xx-xxxx-xx-xxxx-xx-xxxxxxxx--6th--xx-xx-xxxx-xx-xxxx-xx-xxxxxxxx--
F |---------------------------------------------------------------------------
Chorus x2
F |--------------------------------------------- (2nd is strummed)
A#|----------------5th--xx-xx-xxxx-xx-xxxx-5b---
F |--0~~---xxxx-xxxx----------------------------

Intro x2

Bridge x1

Chrous x2

Drum and clap shit.. dunno yet :P

Chorus x2


F |-------------------------------------------------------------------------------
A#|--3----------------3-7----------------7-3----------------3-7----------------7-3
F |--1-xx-xx-x-xx-xxx-1-5-xx-xx-x-xx-xxx-5-1-xx-xx-x-xx-xxx-1-5-xx-xx-x-xx-xxx-5-1 Outro repeat x2
Guitar Tab Creator is intended to store guitar tab created through the tool. It currently does not support in-line text editing. Any text you place in here will be lost. If you need to comment on your tab, please use the "Tab Notes" section located below.