where the cold wind blows

(/) Slide Up  (\) Slide Down  (h) Hammer On  (p) Pull Off  (b) Bend (r) Release (v) Vibrato
E|-------------------------------------------------------------------------------------
B|-------------------------------------------------------------------------------------
G|--------11--------11--12--------11--------11--9--------11--------11--12--11--12--14--
D|-----9---------9-------------9---------9------------9---------9----------------------
A|--7---------7-------------7---------7------------7---------7-------------------------
E|-------------------------------------------------------------------------------------



E|-----------------------------------------------------------------------------------------
B|--15---------------------------------------------------------------12----------------15--
G|------14--12--9b9-------9--11--12--14-----9--11--12-----9--11--12---------9--11--12------
D|---------------------9-----------------9-------------9-----------------9-----------------
A|-----------------------------------------------------------------------------------------
E|-----------------------------------------------------------------------------------------



E|--------------------------15-------------15------------------------------------
B|--15--15/16--15----12h15------15--12h15------15--10h12h15--10h12h15------------
G|---------------------------------------------------------------------11--11----
D|-------------------------------------------------------------------------------
A|-------------------------------------------------------------------------------
E|-------------------------------------------------------------------------------



E|------------------------------------------------------------------------------------------------
B|------------------------------------------------------------------------------------------------
G|--9--11--12--11--9--11--11--12--14--12--11--12--12--14--16--14--12--14--14--16--17--16--14--16--
D|------------------------------------------------------------------------------------------------
A|------------------------------------------------------------------------------------------------
E|------------------------------------------------------------------------------------------------



E|-------------
B|-------------
G|--19--19b19--
D|-------------
A|-------------
E|-------------



E|-----------------------------------------------
B|-----------------------------------------------
G|--------0--------0--------0--------0--------2--
D|-----4--------4--------4--------4--------4-----
A|--2--------------------------------------------
E|-----------3--------3--------0--------0--------



E|---------17---------17---------15--15---------17---------18--18--
B|--12h15------12h15------12h15----------12h15------12h15----------
G|-----------------------------------------------------------------
D|-----------------------------------------------------------------
A|-----------------------------------------------------------------
E|-----------------------------------------------------------------



E|---------17--17---------17---------15--15---------17---------17---------17--18--20--
B|--12h15----------12h15------12h15----------12h15------12h15------12h15--------------
G|------------------------------------------------------------------------------------
D|------------------------------------------------------------------------------------
A|------------------------------------------------------------------------------------
E|------------------------------------------------------------------------------------
http://www.guitartabcreator.com
Guitar Tab Creator is intended to store guitar tab created through the tool. It currently does not support in-line text editing. Any text you place in here will be lost. If you need to comment on your tab, please use the "Tab Notes" section located below.