Composition

(/) Slide Up  (\) Slide Down  (h) Hammer On  (p) Pull Off  (b) Bend (r) Release (v) Vibrato

Stave 1:

E|-----------------------------------------------------------------------------------------------
B|--1--------------1--1--------------1--1--------------1--1--------------1--1--------------1--1--
G|--------2-----2-----------2-----2-----------2-----2-----------2-----2-----------0-----0--------
D|-----2-----------------2-----------------2-----------------2-----------------------------------
A|--0--------0--------0--------0--------0--------0--------0--------0-----------------------------
E|--------------------------------------------------------------------------3--3-----3--------3--

Stave 2:

E|-----------------------------------------------------------------------------------------------
B|--------------1--1--------------1--1--------------1--------------------------------------------
G|-----0-----0-----------0-----0-----------0-----0-----2--------------2--2--------------2--2-----
D|-----------------------------------------------------------0-----0-----------0-----0-----------
A|-----------------------------------------------------------------------------------------------
E|--3-----3--------3--3-----3--------3--3-----3--------2--2-----2--------2--2-----2--------2--2--

Stave 3:

E|-----------------------------------------------------------------------------------------------
B|-----------------------------------------------------------------------------------------------
G|-----------2--2--------------2--2--------------2--2--------------2--2--------------2--2--------
D|--0-----0-----------0-----0-----------3-----3-----------3-----3-----------3-----3-----------3--
A|-----------------------------------------------------------------------------------------------
E|-----2--------2--2-----2--------1--1-----1--------1--1-----1--------1--1-----1--------1--1-----

Stave 4:

E|-----------
B|-----------
G|--------2--
D|-----3-----
A|-----------
E|--1--------

http://www.guitartabcreator.com
Guitar Tab Creator is intended to store guitar tab created through the tool. It currently does not support in-line text editing. Any text you place in here will be lost. If you need to comment on your tab, please use the "Tab Notes" section located below.