Song 1

(/) Slide Up  (\) Slide Down  (h) Hammer On  (p) Pull Off  (b) Bend (r) Release (v) Vibrato


E|----------------------------------------------------------------
B|-----------------------------7b5--------------------------------
G|----------------------------------7--5--7-----------------------
D|-------------------------------------------7--5-----------------
A|--5--7--7--5--2--1-----5--7----------------------8--5--2--5--7--
E|--0--0--------------0--0--0-------------------------------0--0--



E|-----------------------------
B|-----------------------------
G|-----------------------------
D|--7-------9--7---------------
A|--7--9b7--------10--7--7--5--
E|-----------------------0--0--
http://www.guitartabcreator.com
Guitar Tab Creator is intended to store guitar tab created through the tool. It currently does not support in-line text editing. Any text you place in here will be lost. If you need to comment on your tab, please use the "Tab Notes" section located below.