New Riff

(/) Slide Up  (\) Slide Down  (h) Hammer On  (p) Pull Off  (b) Bend (r) Release (v) Vibrato

(W|WW) Whole (H|HH) Half (Q|QQ) Quarter (E|EE) 8th (S|SS) 16th (T|TT) 32nd (X|XX) 64th

Stave 1:
t: S S S S S S Q Q S S S S S S S S S S S S
E|-----------------------------------------------------------------
B|-----------------------------------------------------------------
G|-----------------------------------------------------------------
D|-----------------------------------------------------------------
A|--------------------2--3--------------------3--2--0--------------
E|--0--0--0--0--0--0--------0--0--0--0--0--0-----------3--2--0-----

Stave 2:
t: SS SS SS SS SS SS QQ QQ SS SS SS SS SS SS SS SS SS SS SS SS
E|----------------------------------------------------------------------------------
B|----------------------------------------------------------------------------------
G|----------------------------------------------------------------------------------
D|----------------------------------------------------------------------------------
A|--------------------------14--15--------------------------15--14--12--------------
E|--12--12--12--12--12--12----------12--12--12--12--12--12--------------15--14--12--

http://www.guitartabcreator.com
Guitar Tab Creator is intended to store guitar tab created through the tool. It currently does not support in-line text editing. Any text you place in here will be lost. If you need to comment on your tab, please use the "Tab Notes" section located below.