Someone Like You - Adele

(/) Slide Up  (\) Slide Down  (h) Hammer On  (p) Pull Off  (b) Bend (r) Release (v) Vibrato

Capo 4

Verse

F Am
E|--------------------------------------------------------------------------------------------------
B|--------1-----------1-----------1-----------1-----------1-----------1-----------1-----------1-----
G|-----2-----2-----2-----2-----2-----2-----2-----2-----2-----2-----2-----2-----2-----2-----2-----2--
D|--3-----------3-----------3-----------3-----------2-----------2-----------2-----------2-----------
A|--------------------------------------------------------------------------------------------------
E|--------------------------------------------------------------------------------------------------

I heard that you Settled down, that you

Dm Bb
E|-------------------------------------------------------------------------------------------------
B|--------3-----------3-----------3-----------3-----------3-----------3-----------3----------------
G|-----2-----2-----2-----2-----2-----2-----2-----2-----3-----3-----3-----3-----3-----3-----3-------
D|--0-----------0-----------0-----------0-----------3-----------3-----------3-----------3----------
A|-------------------------------------------------------------------------------------------------
E|-------------------------------------------------------------------------------------------------

Found a girl and you're Married now

Chorus

F Am Dm Bb
E|--------1-----------1-----------0-----------0-----------------------------------------------------
B|-----------1-----------1-----------0-----------0--------3-----------3-----------3-----------3-----
G|-----2-----------2-----------0-----------0-----------2-----2-----2-----2-----3-----3-----3-----3--
D|--3-----------3-----------2-----------2-----------0-----------0-----------3-----------3-----------
A|--------------------------------------------------------------------------------------------------
E|--------------------------------------------------------------------------------------------------

Never mind I'll find someone like you I wish
Nothing but the best for you


http://www.guitartabcreator.com
Guitar Tab Creator is intended to store guitar tab created through the tool. It currently does not support in-line text editing. Any text you place in here will be lost. If you need to comment on your tab, please use the "Tab Notes" section located below.