Flåklypa

(/) Slide Up  (\) Slide Down  (h) Hammer On  (p) Pull Off  (b) Bend (r) Release (v) Vibrato
E|-----0--2--3--2--0-------------------------------------------
B|--0-----------------3--0-------------------------------------
G|--------------------------0--2--4\5--4--2--0--2--4--2--0-----
D|----------------------------------------------------------4--
A|-------------------------------------------------------------
E|-------------------------------------------------------------



E|-----0--2--3--2--0-----------------------------------
B|--0-----------------3--0-----------------------------
G|--------------------------0--2--4--2--0--------------
D|-----------------------------------------4--2--1--2--
A|-----------------------------------------------------
E|-----------------------------------------------------
Guitar Tab Creator is intended to store guitar tab created through the tool. It currently does not support in-line text editing. Any text you place in here will be lost. If you need to comment on your tab, please use the "Tab Notes" section located below.