Untitled #2

(/) Slide Up  (\) Slide Down  (h) Hammer On  (p) Pull Off  (b) Bend (r) Release (v) Vibrato

E|--------------------------------------------------------------
B|-----------1--3-----------1-----------0-----------1-----------
G|--------0--------0-----0-----0-----0-----0-----0-----0-----0--
D|-----2--------------2-----------2-----------2-----------2-----
A|--3-----------------------------------------------------------
E|--------------------------------------------------------------



E|--------------------------------------------------------------
B|--------------------------------------------------------------
G|--7--7--7--7--7--5--5--5--5--5--4--4--4--4--4--5--5--5--5--5--
D|--------------------------------------------------------------
A|--5--5--5--5--5--3--3--3--3--3--2--2--2--2--2--3--3--3--3--3--
E|--------------------------------------------------------------
http://www.guitartabcreator.com
Guitar Tab Creator is intended to store guitar tab created through the tool. It currently does not support in-line text editing. Any text you place in here will be lost. If you need to comment on your tab, please use the "Tab Notes" section located below.