Untitled #1

(/) Slide Up  (\) Slide Down  (h) Hammer On  (p) Pull Off  (b) Bend (r) Release (v) Vibrato
E|----------------------------------------------------------------
B|-----5--8p7--8-------5--8\7--8-------5--8p7--8-------5--8\7--8--
G|----------------------------------------------------------------
D|----------------------------------------------------------------
A|--7---------------5---------------------------------------------
E|----------------------------------7---------------5-------------



E|----------------------------------3p2----------3p2--
B|-----5--8p7-------5--8\7-------5------------3-------
G|----------------------------------------------------
D|----------------------------------------------------
A|--7------------5------------3------------2----------
E|----------------------------------------------------
http://www.guitartabcreator.com
Guitar Tab Creator is intended to store guitar tab created through the tool. It currently does not support in-line text editing. Any text you place in here will be lost. If you need to comment on your tab, please use the "Tab Notes" section located below.