I don't know

(/) Slide Up  (\) Slide Down  (h) Hammer On  (p) Pull Off  (b) Bend (r) Release (v) Vibrato


E|-----------------------------------------------------2-----2-----2-3-3-3-3-3-3-5-5-5-5-5-5-7-7-7-7-7-7-
B|-----2-----2-----3-----3-----2-----2-----3-----3---3-----3-----3---------------------------------------
G|---2-----2-----2-----2-----2-----2-----2-----2---2-----2-----2-----------------------------------------
D|-0-----0-----0-----0-----0-----0-----0-----0-----------------------------------------------------------
A|-------------------------------------------------------------------------------------------------------
E|-------------------------------------------------------------------------------------------------------



E|-8-8-8-8-8-8-10-10-10-10-10-10-12-12-12-12-12-10-8-7-5-3-1-0-10---3-------
B|--------------------------------------------------------------------0-----
G|----------------------------------------------------------------------0---
D|--------------------------------------------------------------------------
A|----------------------------------------------------------------3-------3-
E|--------------------------------------------------------------------------
http://www.guitartabcreator.com
Guitar Tab Creator is intended to store guitar tab created through the tool. It currently does not support in-line text editing. Any text you place in here will be lost. If you need to comment on your tab, please use the "Tab Notes" section located below.